ISO-10303-21;
HEADER;
FILE_DESCRIPTION (( 'STEP AP203' ),
    '1' );
FILE_NAME ('End Cap SDR17_001 115 0140 0250.step',
    '2019-12-16T11:43:31',
    ( '' ),
    ( '' ),
    'SwSTEP 2.0',
    'SolidWorks 2019',
    '' );
FILE_SCHEMA (( 'CONFIG_CONTROL_DESIGN' ));
ENDSEC;

DATA;
#1 = VERTEX_POINT ( 'NONE', #169 ) ;
#2 = EDGE_LOOP ( 'NONE', ( #230, #291, #196 ) ) ;
#3 = CARTESIAN_POINT ( 'NONE',  ( 0.0000000000000000000, -344.4753852168602180, -4.178227013673391887 ) ) ;
#4 = EDGE_CURVE ( 'NONE', #192, #159, #194, .T. ) ;
#5 = AXIS2_PLACEMENT_3D ( 'NONE', #100, #206, #284 ) ;
#6 = LOCAL_TIME ( 14, 43, 31.00000000000000000, #191 ) ;
#7 = FACE_OUTER_BOUND ( 'NONE', #208, .T. ) ;
#8 = DIRECTION ( 'NONE',  ( -0.0000000000000000000, -1.000000000000000000, -0.0000000000000000000 ) ) ;
#9 = EDGE_CURVE ( 'NONE', #192, #269, #185, .T. ) ;
#10 = DIRECTION ( 'NONE',  ( 0.0000000000000000000, 0.0000000000000000000, -1.000000000000000000 ) ) ;
#11 = CARTESIAN_POINT ( 'NONE',  ( -2.820494819939319995E-14, 140.7071568973841238, 0.0000000000000000000 ) ) ;
#12 = DIRECTION ( 'NONE',  ( 0.0000000000000000000, 0.0000000000000000000, -1.000000000000000000 ) ) ;
#13 = DIRECTION ( 'NONE',  ( 1.000000000000000000, 0.0000000000000000000, -1.224646799147353207E-16 ) ) ;
#14 = EDGE_CURVE ( 'NONE', #107, #289, #294, .T. ) ;
#15 = AXIS2_PLACEMENT_3D ( 'NONE', #183, #264, #39 ) ;
#16 = PRODUCT_DEFINITION_FORMATION_WITH_SPECIFIED_SOURCE ( 'HERHANGÝ', '', #149, .NOT_KNOWN. ) ;
#17 = DESIGN_CONTEXT ( 'detailed design', #244, 'design' ) ;
#18 = PERSON_AND_ORGANIZATION ( #287, #79 ) ;
#19 = ORIENTED_EDGE ( 'NONE', *, *, #14, .F. ) ;
#20 = PERSON_AND_ORGANIZATION ( #287, #79 ) ;
#21 = ORIENTED_EDGE ( 'NONE', *, *, #197, .F. ) ;
#22 = CC_DESIGN_PERSON_AND_ORGANIZATION_ASSIGNMENT ( #268, #48, ( #16 ) ) ;
#23 = PERSON_AND_ORGANIZATION_ROLE ( 'classification_officer' ) ;
#24 = ORIENTED_EDGE ( 'NONE', *, *, #265, .T. ) ;
#25 =( GEOMETRIC_REPRESENTATION_CONTEXT ( 3 ) GLOBAL_UNCERTAINTY_ASSIGNED_CONTEXT ( ( #154 ) ) GLOBAL_UNIT_ASSIGNED_CONTEXT ( ( #123, #97, #66 ) ) REPRESENTATION_CONTEXT ( 'NONE', 'WORKASPACE' ) );
#26 = EDGE_LOOP ( 'NONE', ( #304, #49, #136, #248 ) ) ;
#27 = EDGE_CURVE ( 'NONE', #159, #74, #273, .T. ) ;
#28 = CARTESIAN_POINT ( 'NONE',  ( 5.116852338406124174E-16, -344.4753852168602180, 4.178227013673391887 ) ) ;
#29 = DIRECTION ( 'NONE',  ( -0.0000000000000000000, -1.000000000000000000, -0.0000000000000000000 ) ) ;
#30 = AXIS2_PLACEMENT_3D ( 'NONE', #81, #41, #93 ) ;
#31 = LINE ( 'NONE', #115, #121 ) ;
#32 = CARTESIAN_POINT ( 'NONE',  ( 110.1999999999999886, 0.0000000000000000000, 0.0000000000000000000 ) ) ;
#33 = AXIS2_PLACEMENT_3D ( 'NONE', #99, #94, #75 ) ;
#34 = CIRCLE ( 'NONE', #30, 110.1999999999999886 ) ;
#35 = CYLINDRICAL_SURFACE ( 'NONE', #86, 110.1999999999999602 ) ;
#36 = EDGE_CURVE ( 'NONE', #47, #289, #177, .T. ) ;
#37 = DIRECTION ( 'NONE',  ( -0.0000000000000000000, -1.000000000000000000, -0.0000000000000000000 ) ) ;
#38 = CYLINDRICAL_SURFACE ( 'NONE', #33, 124.9999999999999858 ) ;
#39 = DIRECTION ( 'NONE',  ( 0.0000000000000000000, 0.0000000000000000000, -1.000000000000000000 ) ) ;
#40 = FACE_OUTER_BOUND ( 'NONE', #26, .T. ) ;
#41 = DIRECTION ( 'NONE',  ( -0.0000000000000000000, -1.000000000000000000, -0.0000000000000000000 ) ) ;
#42 = PERSON_AND_ORGANIZATION ( #287, #79 ) ;
#43 = AXIS2_PLACEMENT_3D ( 'NONE', #301, #92, #101 ) ;
#44 = CC_DESIGN_SECURITY_CLASSIFICATION ( #112, ( #16 ) ) ;
#45 = CALENDAR_DATE ( 2019, 16, 12 ) ;
#46 = PRODUCT_DEFINITION ( 'BÝLÝNMEYEN', '', #16, #17 ) ;
#47 = VERTEX_POINT ( 'NONE', #235 ) ;
#48 = PERSON_AND_ORGANIZATION_ROLE ( 'design_supplier' ) ;
#49 = ORIENTED_EDGE ( 'NONE', *, *, #14, .T. ) ;
#50 = DATE_AND_TIME ( #270, #6 ) ;
#51 = ORIENTED_EDGE ( 'NONE', *, *, #152, .T. ) ;
#52 = CIRCLE ( 'NONE', #43, 110.1999999999999886 ) ;
#53 = AXIS2_PLACEMENT_3D ( 'NONE', #242, #13, #120 ) ;
#54 = ORIENTED_EDGE ( 'NONE', *, *, #170, .F. ) ;
#55 = CARTESIAN_POINT ( 'NONE',  ( 1.349560772660382721E-14, 0.0000000000000000000, 110.1999999999999602 ) ) ;
#56 = DIRECTION ( 'NONE',  ( 0.0000000000000000000, 0.0000000000000000000, 1.000000000000000000 ) ) ;
#57 = AXIS2_PLACEMENT_3D ( 'NONE', #262, #37, #147 ) ;
#58 = DIRECTION ( 'NONE',  ( 0.0000000000000000000, 0.0000000000000000000, -1.000000000000000000 ) ) ;
#59 = FACE_OUTER_BOUND ( 'NONE', #168, .T. ) ;
#60 = CARTESIAN_POINT ( 'NONE',  ( 0.0000000000000000000, -344.4753852168602180, 0.0000000000000000000 ) ) ;
#61 = CIRCLE ( 'NONE', #53, 499.9999999999998863 ) ;
#62 = ADVANCED_FACE ( 'NONE', ( #7 ), #167, .T. ) ;
#63 = LOCAL_TIME ( 14, 43, 31.00000000000000000, #305 ) ;
#64 = FACE_OUTER_BOUND ( 'NONE', #128, .T. ) ;
#65 = CYLINDRICAL_SURFACE ( 'NONE', #15, 124.9999999999999858 ) ;
#66 =( NAMED_UNIT ( * ) SI_UNIT ( $, .STERADIAN. ) SOLID_ANGLE_UNIT ( ) );
#67 = MECHANICAL_CONTEXT ( 'NONE', #229, 'mechanical' ) ;
#68 = EDGE_CURVE ( 'NONE', #306, #1, #164, .T. ) ;
#69 = PERSON_AND_ORGANIZATION ( #287, #79 ) ;
#70 = ORIENTED_EDGE ( 'NONE', *, *, #68, .F. ) ;
#71 = PERSON_AND_ORGANIZATION ( #287, #79 ) ;
#72 = ORIENTED_EDGE ( 'NONE', *, *, #240, .F. ) ;
#73 = APPROVAL_ROLE ( '' ) ;
#74 = VERTEX_POINT ( 'NONE', #172 ) ;
#75 = DIRECTION ( 'NONE',  ( 0.0000000000000000000, 0.0000000000000000000, -1.000000000000000000 ) ) ;
#76 = ORIENTED_EDGE ( 'NONE', *, *, #126, .F. ) ;
#77 = AXIS2_PLACEMENT_3D ( 'NONE', #90, #202, #279 ) ;
#78 = CIRCLE ( 'NONE', #77, 110.1999999999999176 ) ;
#79 = ORGANIZATION ( 'BELÝRTÝLMEMÝÞ', 'BELÝRTÝLMEMÝÞ', '' ) ;
#80 = CARTESIAN_POINT ( 'NONE',  ( 1.530808498934191245E-14, 0.0000000000000000000, 124.9999999999999858 ) ) ;
#81 = CARTESIAN_POINT ( 'NONE',  ( 0.0000000000000000000, 0.0000000000000000000, 0.0000000000000000000 ) ) ;
#82 = DIRECTION ( 'NONE',  ( -0.0000000000000000000, -1.000000000000000000, -0.0000000000000000000 ) ) ;
#83 = CC_DESIGN_PERSON_AND_ORGANIZATION_ASSIGNMENT ( #71, #188, ( #16 ) ) ;
#84 = CARTESIAN_POINT ( 'NONE',  ( 1.530808498934191245E-14, 140.7071568973841238, 124.9999999999999716 ) ) ;
#85 = AXIS2_PLACEMENT_3D ( 'NONE', #119, #222, #300 ) ;
#86 = AXIS2_PLACEMENT_3D ( 'NONE', #146, #241, #12 ) ;
#87 = CARTESIAN_POINT ( 'NONE',  ( 0.0000000000000000000, 0.0000000000000000000, 0.0000000000000000000 ) ) ;
#88 = FACE_OUTER_BOUND ( 'NONE', #130, .T. ) ;
#89 = ADVANCED_FACE ( 'NONE', ( #257 ), #155, .T. ) ;
#90 = CARTESIAN_POINT ( 'NONE',  ( 0.0000000000000000000, 128.9999999999999432, 0.0000000000000000000 ) ) ;
#91 = CIRCLE ( 'NONE', #85, 124.9999999999999716 ) ;
#92 = DIRECTION ( 'NONE',  ( -0.0000000000000000000, -1.000000000000000000, -0.0000000000000000000 ) ) ;
#93 = DIRECTION ( 'NONE',  ( 0.0000000000000000000, 0.0000000000000000000, -1.000000000000000000 ) ) ;
#94 = DIRECTION ( 'NONE',  ( -0.0000000000000000000, -1.000000000000000000, -0.0000000000000000000 ) ) ;
#95 = AXIS2_PLACEMENT_3D ( 'NONE', #60, #176, #260 ) ;
#96 = TOROIDAL_SURFACE ( 'NONE', #95, 4.178227013673391887, 485.2005325155963646 ) ;
#97 =( NAMED_UNIT ( * ) PLANE_ANGLE_UNIT ( ) SI_UNIT ( $, .RADIAN. ) );
#98 = VECTOR ( 'NONE', #299, 1000.000000000000000 ) ;
#99 = CARTESIAN_POINT ( 'NONE',  ( 0.0000000000000000000, 0.0000000000000000000, 0.0000000000000000000 ) ) ;
#100 = CARTESIAN_POINT ( 'NONE',  ( 0.0000000000000000000, 0.0000000000000000000, 0.0000000000000000000 ) ) ;
#101 = DIRECTION ( 'NONE',  ( 0.0000000000000000000, 0.0000000000000000000, -1.000000000000000000 ) ) ;
#102 = EDGE_CURVE ( 'NONE', #107, #1, #145, .T. ) ;
#103 = CALENDAR_DATE ( 2019, 16, 12 ) ;
#104 = ORIENTED_EDGE ( 'NONE', *, *, #170, .T. ) ;
#105 = CALENDAR_DATE ( 2019, 16, 12 ) ;
#106 = AXIS2_PLACEMENT_3D ( 'NONE', #32, #143, #239 ) ;
#107 = VERTEX_POINT ( 'NONE', #84 ) ;
#108 = DATE_TIME_ROLE ( 'classification_date' ) ;
#109 = ORIENTED_EDGE ( 'NONE', *, *, #4, .T. ) ;
#110 = ORIENTED_EDGE ( 'NONE', *, *, #227, .F. ) ;
#111 = DIRECTION ( 'NONE',  ( -1.000000000000000000, 0.0000000000000000000, 0.0000000000000000000 ) ) ;
#112 = SECURITY_CLASSIFICATION ( '', '', #162 ) ;
#113 = CC_DESIGN_PERSON_AND_ORGANIZATION_ASSIGNMENT ( #42, #157, ( #149 ) ) ;
#114 = DIRECTION ( 'NONE',  ( 0.0000000000000000000, 0.0000000000000000000, -1.000000000000000000 ) ) ;
#115 = CARTESIAN_POINT ( 'NONE',  ( 0.0000000000000000000, 0.0000000000000000000, -124.9999999999999858 ) ) ;
#116 = AXIS2_PLACEMENT_3D ( 'NONE', #87, #201, #277 ) ;
#117 = CIRCLE ( 'NONE', #116, 125.0000000000000000 ) ;
#118 = LINE ( 'NONE', #221, #98 ) ;
#119 = CARTESIAN_POINT ( 'NONE',  ( 0.0000000000000000000, 140.7071568973841238, 0.0000000000000000000 ) ) ;
#120 = DIRECTION ( 'NONE',  ( -1.224646799147353207E-16, 0.0000000000000000000, -1.000000000000000000 ) ) ;
#121 = VECTOR ( 'NONE', #220, 1000.000000000000000 ) ;
#122 = PRODUCT_RELATED_PRODUCT_CATEGORY ( 'detail', '', ( #149 ) ) ;
#123 =( LENGTH_UNIT ( ) NAMED_UNIT ( * ) SI_UNIT ( .MILLI., .METRE. ) );
#124 = AXIS2_PLACEMENT_3D ( 'NONE', #142, #238, #10 ) ;
#125 = LOCAL_TIME ( 14, 43, 31.00000000000000000, #303 ) ;
#126 = EDGE_CURVE ( 'NONE', #269, #159, #140, .T. ) ;
#127 = APPROVAL_STATUS ( 'not_yet_approved' ) ;
#128 = EDGE_LOOP ( 'NONE', ( #72, #271, #272, #21 ) ) ;
#129 = APPROVAL_STATUS ( 'not_yet_approved' ) ;
#130 = EDGE_LOOP ( 'NONE', ( #267, #134, #292 ) ) ;
#131 = COORDINATED_UNIVERSAL_TIME_OFFSET ( 3, 0, .AHEAD. ) ;
#132 = TOROIDAL_SURFACE ( 'NONE', #124, 4.178227013673391887, 485.2005325155963646 ) ;
#133 = AXIS2_PLACEMENT_3D ( 'NONE', #200, #276, #58 ) ;
#134 = ORIENTED_EDGE ( 'NONE', *, *, #9, .T. ) ;
#135 = MANIFOLD_SOLID_BREP ( 'Döndür1', #195 ) ;
#136 = ORIENTED_EDGE ( 'NONE', *, *, #36, .F. ) ;
#137 = DIRECTION ( 'NONE',  ( 1.000000000000000000, 0.0000000000000000000, -1.224646799147353207E-16 ) ) ;
#138 = DIRECTION ( 'NONE',  ( 0.0000000000000000000, 0.0000000000000000000, -1.000000000000000000 ) ) ;
#139 = ADVANCED_FACE ( 'NONE', ( #174 ), #132, .F. ) ;
#140 = CIRCLE ( 'NONE', #133, 110.1999999999999176 ) ;
#141 = CARTESIAN_POINT ( 'NONE',  ( 0.0000000000000000000, 140.7071568973841238, 0.0000000000000000000 ) ) ;
#142 = CARTESIAN_POINT ( 'NONE',  ( 0.0000000000000000000, -344.4753852168602180, 0.0000000000000000000 ) ) ;
#143 = DIRECTION ( 'NONE',  ( 0.0000000000000000000, -1.000000000000000000, -0.0000000000000000000 ) ) ;
#144 = AXIS2_PLACEMENT_3D ( 'NONE', #141, #218, #297 ) ;
#145 = CIRCLE ( 'NONE', #144, 124.9999999999999716 ) ;
#146 = CARTESIAN_POINT ( 'NONE',  ( 0.0000000000000000000, 0.0000000000000000000, 0.0000000000000000000 ) ) ;
#147 = DIRECTION ( 'NONE',  ( 0.0000000000000000000, 0.0000000000000000000, -1.000000000000000000 ) ) ;
#148 = APPROVAL ( #129, 'BELÝRTÝLMEMÝÞ' ) ;
#149 = PRODUCT ( 'End Cap SDR17_001 115 0140 0250', 'End Cap SDR17_001 115 0140 0250', '', ( #67 ) ) ;
#150 = AXIS2_PLACEMENT_3D ( 'NONE', #236, #8, #114 ) ;
#151 = CARTESIAN_POINT ( 'NONE',  ( -2.341876692568689577E-14, 155.5071568973840783, 0.0000000000000000000 ) ) ;
#152 = EDGE_CURVE ( 'NONE', #1, #47, #31, .T. ) ;
#153 = APPLICATION_PROTOCOL_DEFINITION ( 'international standard', 'config_control_design', 1994, #229 ) ;
#154 = UNCERTAINTY_MEASURE_WITH_UNIT (LENGTH_MEASURE( 1.000000000000000082E-05 ), #123, 'distance_accuracy_value', 'NONE');
#155 = TOROIDAL_SURFACE ( 'NONE', #150, 4.178227013673391887, 499.9999999999998863 ) ;
#156 = AXIS2_PLACEMENT_3D ( 'NONE', #217, #275, #56 ) ;
#157 = PERSON_AND_ORGANIZATION_ROLE ( 'design_owner' ) ;
#158 = APPROVAL_PERSON_ORGANIZATION ( #212, #189, #73 ) ;
#159 = VERTEX_POINT ( 'NONE', #298 ) ;
#160 = DATE_AND_TIME ( #45, #179 ) ;
#161 = ORIENTED_EDGE ( 'NONE', *, *, #9, .F. ) ;
#162 = SECURITY_CLASSIFICATION_LEVEL ( 'unclassified' ) ;
#163 = ORIENTED_EDGE ( 'NONE', *, *, #265, .F. ) ;
#164 = CIRCLE ( 'NONE', #156, 499.9999999999998863 ) ;
#165 = APPROVAL_DATE_TIME ( #50, #189 ) ;
#166 = AXIS2_PLACEMENT_3D ( 'NONE', #296, #82, #199 ) ;
#167 = TOROIDAL_SURFACE ( 'NONE', #166, 4.178227013673391887, 499.9999999999998863 ) ;
#168 = EDGE_LOOP ( 'NONE', ( #214, #104 ) ) ;
#169 = CARTESIAN_POINT ( 'NONE',  ( 0.0000000000000000000, 140.7071568973841238, -124.9999999999999716 ) ) ;
#170 = EDGE_CURVE ( 'NONE', #289, #47, #117, .T. ) ;
#171 = DIRECTION ( 'NONE',  ( -0.0000000000000000000, -1.000000000000000000, -0.0000000000000000000 ) ) ;
#172 = CARTESIAN_POINT ( 'NONE',  ( 1.349560772660383037E-14, 0.0000000000000000000, 110.1999999999999886 ) ) ;
#173 = AXIS2_PLACEMENT_3D ( 'NONE', #256, #29, #138 ) ;
#174 = FACE_OUTER_BOUND ( 'NONE', #232, .T. ) ;
#175 = FACE_BOUND ( 'NONE', #250, .T. ) ;
#176 = DIRECTION ( 'NONE',  ( -0.0000000000000000000, -1.000000000000000000, -0.0000000000000000000 ) ) ;
#177 = CIRCLE ( 'NONE', #173, 125.0000000000000000 ) ;
#178 = VECTOR ( 'NONE', #171, 1000.000000000000000 ) ;
#179 = LOCAL_TIME ( 14, 43, 31.00000000000000000, #266 ) ;
#180 = CYLINDRICAL_SURFACE ( 'NONE', #57, 110.1999999999999602 ) ;
#181 = ADVANCED_FACE ( 'NONE', ( #59, #175 ), #259, .T. ) ;
#182 = VECTOR ( 'NONE', #198, 1000.000000000000000 ) ;
#183 = CARTESIAN_POINT ( 'NONE',  ( 0.0000000000000000000, 0.0000000000000000000, 0.0000000000000000000 ) ) ;
#184 = AXIS2_PLACEMENT_3D ( 'NONE', #3, #111, #216 ) ;
#185 = CIRCLE ( 'NONE', #184, 485.2005325155963646 ) ;
#186 = PERSON_AND_ORGANIZATION_ROLE ( 'creator' ) ;
#187 = ORIENTED_EDGE ( 'NONE', *, *, #197, .T. ) ;
#188 = PERSON_AND_ORGANIZATION_ROLE ( 'creator' ) ;
#189 = APPROVAL ( #290, 'BELÝRTÝLMEMÝÞ' ) ;
#190 = ORIENTED_EDGE ( 'NONE', *, *, #102, .T. ) ;
#191 = COORDINATED_UNIVERSAL_TIME_OFFSET ( 3, 0, .AHEAD. ) ;
#192 = VERTEX_POINT ( 'NONE', #11 ) ;
#193 = AXIS2_PLACEMENT_3D ( 'NONE', #28, #137, #234 ) ;
#194 = CIRCLE ( 'NONE', #193, 485.2005325155963646 ) ;
#195 = CLOSED_SHELL ( 'NONE', ( #139, #62, #274, #247, #223, #181, #295, #89, #204 ) ) ;
#196 = ORIENTED_EDGE ( 'NONE', *, *, #102, .F. ) ;
#197 = EDGE_CURVE ( 'NONE', #269, #255, #118, .T. ) ;
#198 = DIRECTION ( 'NONE',  ( -0.0000000000000000000, -1.000000000000000000, -0.0000000000000000000 ) ) ;
#199 = DIRECTION ( 'NONE',  ( 0.0000000000000000000, 0.0000000000000000000, -1.000000000000000000 ) ) ;
#200 = CARTESIAN_POINT ( 'NONE',  ( 0.0000000000000000000, 128.9999999999999432, 0.0000000000000000000 ) ) ;
#201 = DIRECTION ( 'NONE',  ( -0.0000000000000000000, -1.000000000000000000, -0.0000000000000000000 ) ) ;
#202 = DIRECTION ( 'NONE',  ( -0.0000000000000000000, -1.000000000000000000, -0.0000000000000000000 ) ) ;
#203 = CC_DESIGN_APPROVAL ( #189, ( #112 ) ) ;
#204 = ADVANCED_FACE ( 'NONE', ( #88 ), #96, .F. ) ;
#205 = CARTESIAN_POINT ( 'NONE',  ( 1.530808498934191561E-14, 0.0000000000000000000, 125.0000000000000000 ) ) ;
#206 = DIRECTION ( 'NONE',  ( 0.0000000000000000000, 0.0000000000000000000, 1.000000000000000000 ) ) ;
#207 = DATE_AND_TIME ( #103, #125 ) ;
#208 = EDGE_LOOP ( 'NONE', ( #70, #253, #110 ) ) ;
#209 = CC_DESIGN_DATE_AND_TIME_ASSIGNMENT ( #160, #249, ( #46 ) ) ;
#210 = DATE_AND_TIME ( #105, #63 ) ;
#211 = EDGE_LOOP ( 'NONE', ( #19, #190, #51, #54 ) ) ;
#212 = PERSON_AND_ORGANIZATION ( #287, #79 ) ;
#213 = ORIENTED_EDGE ( 'NONE', *, *, #27, .F. ) ;
#214 = ORIENTED_EDGE ( 'NONE', *, *, #36, .T. ) ;
#215 = APPROVAL_PERSON_ORGANIZATION ( #20, #148, #228 ) ;
#216 = DIRECTION ( 'NONE',  ( 0.0000000000000000000, 0.0000000000000000000, 1.000000000000000000 ) ) ;
#217 = CARTESIAN_POINT ( 'NONE',  ( 0.0000000000000000000, -344.4753852168602180, -4.178227013673391887 ) ) ;
#218 = DIRECTION ( 'NONE',  ( -0.0000000000000000000, -1.000000000000000000, -0.0000000000000000000 ) ) ;
#219 = CARTESIAN_POINT ( 'NONE',  ( 0.0000000000000000000, 128.9999999999999432, -110.1999999999999176 ) ) ;
#220 = DIRECTION ( 'NONE',  ( -0.0000000000000000000, -1.000000000000000000, -0.0000000000000000000 ) ) ;
#221 = CARTESIAN_POINT ( 'NONE',  ( 0.0000000000000000000, 0.0000000000000000000, -110.1999999999999602 ) ) ;
#222 = DIRECTION ( 'NONE',  ( -0.0000000000000000000, -1.000000000000000000, -0.0000000000000000000 ) ) ;
#223 = ADVANCED_FACE ( 'NONE', ( #278 ), #35, .F. ) ;
#224 = CARTESIAN_POINT ( 'NONE',  ( 0.0000000000000000000, 0.0000000000000000000, -110.1999999999999886 ) ) ;
#225 = APPROVAL_ROLE ( '' ) ;
#226 = ORIENTED_EDGE ( 'NONE', *, *, #240, .T. ) ;
#227 = EDGE_CURVE ( 'NONE', #1, #107, #91, .T. ) ;
#228 = APPROVAL_ROLE ( '' ) ;
#229 = APPLICATION_CONTEXT ( 'configuration controlled 3d designs of mechanical parts and assemblies' ) ;
#230 = ORIENTED_EDGE ( 'NONE', *, *, #251, .F. ) ;
#231 = CALENDAR_DATE ( 2019, 16, 12 ) ;
#232 = EDGE_LOOP ( 'NONE', ( #161, #109, #226 ) ) ;
#233 = ORIENTED_EDGE ( 'NONE', *, *, #283, .F. ) ;
#234 = DIRECTION ( 'NONE',  ( -1.224646799147353207E-16, 0.0000000000000000000, -1.000000000000000000 ) ) ;
#235 = CARTESIAN_POINT ( 'NONE',  ( 0.0000000000000000000, 0.0000000000000000000, -125.0000000000000000 ) ) ;
#236 = CARTESIAN_POINT ( 'NONE',  ( 0.0000000000000000000, -344.4753852168602180, 0.0000000000000000000 ) ) ;
#237 = CC_DESIGN_DATE_AND_TIME_ASSIGNMENT ( #307, #108, ( #112 ) ) ;
#238 = DIRECTION ( 'NONE',  ( -0.0000000000000000000, -1.000000000000000000, -0.0000000000000000000 ) ) ;
#239 = DIRECTION ( 'NONE',  ( 0.0000000000000000000, 0.0000000000000000000, -1.000000000000000000 ) ) ;
#240 = EDGE_CURVE ( 'NONE', #159, #269, #78, .T. ) ;
#241 = DIRECTION ( 'NONE',  ( -0.0000000000000000000, -1.000000000000000000, -0.0000000000000000000 ) ) ;
#242 = CARTESIAN_POINT ( 'NONE',  ( 5.116852338406124174E-16, -344.4753852168602180, 4.178227013673391887 ) ) ;
#243 = ADVANCED_BREP_SHAPE_REPRESENTATION ( 'End Cap SDR17_001 115 0140 0250', ( #135, #5 ), #25 ) ;
#244 = APPLICATION_CONTEXT ( 'configuration controlled 3d designs of mechanical parts and assemblies' ) ;
#245 = CC_DESIGN_APPROVAL ( #148, ( #16 ) ) ;
#246 = APPLICATION_PROTOCOL_DEFINITION ( 'international standard', 'config_control_design', 1994, #244 ) ;
#247 = ADVANCED_FACE ( 'NONE', ( #64 ), #180, .F. ) ;
#248 = ORIENTED_EDGE ( 'NONE', *, *, #152, .F. ) ;
#249 = DATE_TIME_ROLE ( 'creation_date' ) ;
#250 = EDGE_LOOP ( 'NONE', ( #163, #233 ) ) ;
#251 = EDGE_CURVE ( 'NONE', #306, #107, #61, .T. ) ;
#252 = PERSON_AND_ORGANIZATION ( #287, #79 ) ;
#253 = ORIENTED_EDGE ( 'NONE', *, *, #251, .T. ) ;
#254 = SHAPE_DEFINITION_REPRESENTATION ( #263, #243 ) ;
#255 = VERTEX_POINT ( 'NONE', #224 ) ;
#256 = CARTESIAN_POINT ( 'NONE',  ( 0.0000000000000000000, 0.0000000000000000000, 0.0000000000000000000 ) ) ;
#257 = FACE_OUTER_BOUND ( 'NONE', #2, .T. ) ;
#258 = CC_DESIGN_PERSON_AND_ORGANIZATION_ASSIGNMENT ( #69, #186, ( #46 ) ) ;
#259 = PLANE ( 'NONE',  #106 ) ;
#260 = DIRECTION ( 'NONE',  ( 0.0000000000000000000, 0.0000000000000000000, -1.000000000000000000 ) ) ;
#261 = APPROVAL_PERSON_ORGANIZATION ( #18, #302, #225 ) ;
#262 = CARTESIAN_POINT ( 'NONE',  ( 0.0000000000000000000, 0.0000000000000000000, 0.0000000000000000000 ) ) ;
#263 = PRODUCT_DEFINITION_SHAPE ( 'NONE', 'NONE',  #46 ) ;
#264 = DIRECTION ( 'NONE',  ( -0.0000000000000000000, -1.000000000000000000, -0.0000000000000000000 ) ) ;
#265 = EDGE_CURVE ( 'NONE', #255, #74, #52, .T. ) ;
#266 = COORDINATED_UNIVERSAL_TIME_OFFSET ( 3, 0, .AHEAD. ) ;
#267 = ORIENTED_EDGE ( 'NONE', *, *, #4, .F. ) ;
#268 = PERSON_AND_ORGANIZATION ( #287, #79 ) ;
#269 = VERTEX_POINT ( 'NONE', #219 ) ;
#270 = CALENDAR_DATE ( 2019, 16, 12 ) ;
#271 = ORIENTED_EDGE ( 'NONE', *, *, #27, .T. ) ;
#272 = ORIENTED_EDGE ( 'NONE', *, *, #283, .T. ) ;
#273 = LINE ( 'NONE', #55, #178 ) ;
#274 = ADVANCED_FACE ( 'NONE', ( #40 ), #38, .T. ) ;
#275 = DIRECTION ( 'NONE',  ( -1.000000000000000000, 0.0000000000000000000, 0.0000000000000000000 ) ) ;
#276 = DIRECTION ( 'NONE',  ( -0.0000000000000000000, -1.000000000000000000, -0.0000000000000000000 ) ) ;
#277 = DIRECTION ( 'NONE',  ( 0.0000000000000000000, 0.0000000000000000000, -1.000000000000000000 ) ) ;
#278 = FACE_OUTER_BOUND ( 'NONE', #286, .T. ) ;
#279 = DIRECTION ( 'NONE',  ( 0.0000000000000000000, 0.0000000000000000000, -1.000000000000000000 ) ) ;
#280 = LOCAL_TIME ( 14, 43, 31.00000000000000000, #131 ) ;
#281 = CC_DESIGN_PERSON_AND_ORGANIZATION_ASSIGNMENT ( #252, #23, ( #112 ) ) ;
#282 = FACE_OUTER_BOUND ( 'NONE', #211, .T. ) ;
#283 = EDGE_CURVE ( 'NONE', #74, #255, #34, .T. ) ;
#284 = DIRECTION ( 'NONE',  ( 1.000000000000000000, 0.0000000000000000000, 0.0000000000000000000 ) ) ;
#285 = APPROVAL_DATE_TIME ( #207, #302 ) ;
#286 = EDGE_LOOP ( 'NONE', ( #213, #76, #187, #24 ) ) ;
#287 = PERSON ( 'BELÝRTÝLMEMÝÞ', 'BELÝRTÝLMEMÝÞ', 'BELÝRTÝLMEMÝÞ', ('BELÝRTÝLMEMÝÞ'), ('BELÝRTÝLMEMÝÞ'), ('BELÝRTÝLMEMÝÞ') ) ;
#288 = APPROVAL_DATE_TIME ( #210, #148 ) ;
#289 = VERTEX_POINT ( 'NONE', #205 ) ;
#290 = APPROVAL_STATUS ( 'not_yet_approved' ) ;
#291 = ORIENTED_EDGE ( 'NONE', *, *, #68, .T. ) ;
#292 = ORIENTED_EDGE ( 'NONE', *, *, #126, .T. ) ;
#293 = CC_DESIGN_APPROVAL ( #302, ( #46 ) ) ;
#294 = LINE ( 'NONE', #80, #182 ) ;
#295 = ADVANCED_FACE ( 'NONE', ( #282 ), #65, .T. ) ;
#296 = CARTESIAN_POINT ( 'NONE',  ( 0.0000000000000000000, -344.4753852168602180, 0.0000000000000000000 ) ) ;
#297 = DIRECTION ( 'NONE',  ( 0.0000000000000000000, 0.0000000000000000000, -1.000000000000000000 ) ) ;
#298 = CARTESIAN_POINT ( 'NONE',  ( 1.349560772660382563E-14, 128.9999999999999432, 110.1999999999999176 ) ) ;
#299 = DIRECTION ( 'NONE',  ( -0.0000000000000000000, -1.000000000000000000, -0.0000000000000000000 ) ) ;
#300 = DIRECTION ( 'NONE',  ( 0.0000000000000000000, 0.0000000000000000000, -1.000000000000000000 ) ) ;
#301 = CARTESIAN_POINT ( 'NONE',  ( 0.0000000000000000000, 0.0000000000000000000, 0.0000000000000000000 ) ) ;
#302 = APPROVAL ( #127, 'BELÝRTÝLMEMÝÞ' ) ;
#303 = COORDINATED_UNIVERSAL_TIME_OFFSET ( 3, 0, .AHEAD. ) ;
#304 = ORIENTED_EDGE ( 'NONE', *, *, #227, .T. ) ;
#305 = COORDINATED_UNIVERSAL_TIME_OFFSET ( 3, 0, .AHEAD. ) ;
#306 = VERTEX_POINT ( 'NONE', #151 ) ;
#307 = DATE_AND_TIME ( #231, #280 ) ;
ENDSEC;
END-ISO-10303-21;
